"NIYARE PIYANEGALA (VERSION 2)" SONG CHORDS

SAMAN DE SILVA GUITAR CHORDS

NIYARE PIYANEGALA (VERSION 2)  - 
goodcould be betterworth learningaccurateexcellent Chord Quality 
Loading...
Auto ScrollSlowMediumFastFaster
Transpose these guitar chords into a different key:
[Intro/Inter]
-------------------------------------------
|Em  |-  |C   |-  |
|D   |-  |G   |-  | 
|-   |-  |D   |-  |
|Em  |-  |Em  |C  |
|-   |Em  |

[Chorus]
-------------------------------------------
    Em    D        Em
Niyaree.. piya nagala
        D           Em
Manike..oba dura enawa
    Am              Em
Dakalaa... vehesa niwee
           C         D            Em
Sitha pirunaa....ada senehasa danunaa

[Verse 1]
-------------------------------------------
Em                      G          Em
Ran goyam karal peedena obe desa namee
Em                    G          Em
Ran ruwak wage aathin obe ruwa mawee
Am                    Em
aadare danee maa hada soo susum niwee
D                   Bm
Wasanaawa paawela giya

[Verse 2]
-------------------------------------------
Em                       G            Em
Sudu athin uyaa maa desa ambula gena oyaa
Em                     G          Em
Saamada mesee enu mana mal sina salaa
Am                    Em
aadare danee maa hada soo susum niwee
D                   Bm
Wasanaawa paawela giya
[Intro]
==============================================================
 
  |Em|-|C|-| (Play 4 times)
E|--------------------
B|--------------------
G|-----7--9--9--7-----
D|--9-----------------
A|--------------------
E|--------------------
			
          D                              G
E|------------------------------------8--7--7-------------7--
B|--------7--7-----------7--7--8--10-----------10--8--10-----
G|-----7--------9--7--9--------------------------------------
D|--9--------------------------------------------------------
A|-----------------------------------------------------------
E|-----------------------------------------------------------
 
After the Keyboard part

  Em
E|--7----------------------------------
B|-----10--8--10--8--7--8--7-----------
G|----------------------------9--7--9--
D|-------------------------------------
A|-------------------------------------
E|------------------------------------- 

  |Em|C|D|Em| (Play 4 times)
E|--------------------
B|--------------------
G|-----7--9--9--7-----
D|--9-----------------
A|--------------------
E|--------------------

Leave a Reply